                                                                        S      1
,,10H000501.ipt,27HNo Iges File Name specified,22HAutodesk Inventor 2012G      1
,37HAutoDesk Inventor Iges Exporter R2012,32,38,6,99,15,10H000501.ipt,  G      2
1.0D0,2,2HMM,1,.08D0,15H20160219.114443,.01D0,10000.0D0,9Hamaurizio,,11,G      3
0,,;                                                                    G      4
     406       1       0       0       1       0       0       000000000D      1
     406       0       0       1       3                               0D      2
     120       2       0       0       0       0       0       000010000D      3
     120       0       0       1       0                               0D      4
     110       3       0       0       0       0       0       000010000D      5
     110       0       0       2       0                               0D      6
     110       5       0       0       0       0       0       001010000D      7
     110       0       0       1       0                               0D      8
     504       6       0       0       0       0       0       000010001D      9
     504       0       0       3       1                               0D     10
     502       9       0       0       0       0       0       000010000D     11
     502       0       0       9       1                               0D     12
     100      18       0       0       0       0      15       000010000D     13
     100       0       0       2       0                               0D     14
     124      20       0       0       0       0       0       000000000D     15
     124       0       0       2       0                               0D     16
     508      22       0       0       0       0       0       000010000D     17
     508       0       0       1       1                               0D     18
     100      23       0       0       0       0      21       000010000D     19
     100       0       0       2       0                               0D     20
     124      25       0       0       0       0       0       000000000D     21
     124       0       0       2       0                               0D     22
     508      27       0       0       0       0       0       000010000D     23
     508       0       0       1       1                               0D     24
     510      28       0       0       0       0       0       000010000D     25
     510       0    -215       1       1                               0D     26
     116      29       0       0       0       0       0       000010000D     27
     116       0       0       1       0                               0D     28
     123      30       0       0       0       0       0       000010200D     29
     123       0       0       1       0                               0D     30
     190      31       0       0       0       0       0       000010000D     31
     190       0       0       1       1                               0D     32
     123      32       0       0       0       0       0       000010200D     33
     123       0       0       1       0                               0D     34
     100      33       0       0       0       0      37       000010000D     35
     100       0       0       2       0                               0D     36
     124      35       0       0       0       0       0       000000000D     37
     124       0       0       2       0                               0D     38
     508      37       0       0       0       0       0       000010000D     39
     508       0       0       1       1                               0D     40
     508      38       0       0       0       0       0       000010000D     41
     508       0       0       1       1                               0D     42
     510      39       0       0       0       0       0       000010000D     43
     510       0    -215       1       1                               0D     44
     120      40       0       0       0       0       0       000010000D     45
     120       0       0       1       0                               0D     46
     110      41       0       0       0       0       0       000010000D     47
     110       0       0       1       0                               0D     48
     110      42       0       0       0       0       0       001010000D     49
     110       0       0       1       0                               0D     50
     100      43       0       0       0       0      53       000010000D     51
     100       0       0       2       0                               0D     52
     124      45       0       0       0       0       0       000000000D     53
     124       0       0       2       0                               0D     54
     508      47       0       0       0       0       0       000010000D     55
     508       0       0       1       1                               0D     56
     508      48       0       0       0       0       0       000010000D     57
     508       0       0       1       1                               0D     58
     510      49       0       0       0       0       0       000010000D     59
     510       0    -215       1       1                               0D     60
     116      50       0       0       0       0       0       000010000D     61
     116       0       0       1       0                               0D     62
     123      51       0       0       0       0       0       000010200D     63
     123       0       0       1       0                               0D     64
     194      52       0       0       0       0       0       000010000D     65
     194       0       0       1       1                               0D     66
     123      53       0       0       0       0       0       000010200D     67
     123       0       0       1       0                               0D     68
     508      54       0       0       0       0       0       000010000D     69
     508       0       0       1       1                               0D     70
     100      55       0       0       0       0      73       000010000D     71
     100       0       0       2       0                               0D     72
     124      57       0       0       0       0       0       000000000D     73
     124       0       0       2       0                               0D     74
     508      59       0       0       0       0       0       000010000D     75
     508       0       0       1       1                               0D     76
     510      60       0       0       0       0       0       000010000D     77
     510       0    -215       1       1                               0D     78
     116      61       0       0       0       0       0       000010000D     79
     116       0       0       1       0                               0D     80
     123      62       0       0       0       0       0       000010200D     81
     123       0       0       1       0                               0D     82
     192      63       0       0       0       0       0       000010000D     83
     192       0       0       1       1                               0D     84
     123      64       0       0       0       0       0       000010200D     85
     123       0       0       1       0                               0D     86
     100      65       0       0       0       0      53       000010000D     87
     100       0       0       2       0                               0D     88
     508      67       0       0       0       0       0       000010000D     89
     508       0       0       1       1                               0D     90
     508      68       0       0       0       0       0       000010000D     91
     508       0       0       1       1                               0D     92
     510      69       0       0       0       0       0       000010000D     93
     510       0    -215       1       1                               0D     94
     120      70       0       0       0       0       0       000010000D     95
     120       0       0       1       0                               0D     96
     110      71       0       0       0       0       0       000010000D     97
     110       0       0       2       0                               0D     98
     110      73       0       0       0       0       0       001010000D     99
     110       0       0       2       0                               0D    100
     100      75       0       0       0       0     103       000010000D    101
     100       0       0       2       0                               0D    102
     124      77       0       0       0       0       0       000000000D    103
     124       0       0       2       0                               0D    104
     508      79       0       0       0       0       0       000010000D    105
     508       0       0       1       1                               0D    106
     100      80       0       0       0       0     109       000010000D    107
     100       0       0       2       0                               0D    108
     124      82       0       0       0       0       0       000000000D    109
     124       0       0       2       0                               0D    110
     508      84       0       0       0       0       0       000010000D    111
     508       0       0       1       1                               0D    112
     510      85       0       0       0       0       0       000010000D    113
     510       0    -215       1       1                               0D    114
     116      86       0       0       0       0       0       000010000D    115
     116       0       0       1       0                               0D    116
     123      87       0       0       0       0       0       000010200D    117
     123       0       0       1       0                               0D    118
     190      88       0       0       0       0       0       000010000D    119
     190       0       0       1       1                               0D    120
     123      89       0       0       0       0       0       000010200D    121
     123       0       0       1       0                               0D    122
     100      90       0       0       0       0     125       000010000D    123
     100       0       0       2       0                               0D    124
     124      92       0       0       0       0       0       000000000D    125
     124       0       0       2       0                               0D    126
     508      94       0       0       0       0       0       000010000D    127
     508       0       0       1       1                               0D    128
     508      95       0       0       0       0       0       000010000D    129
     508       0       0       1       1                               0D    130
     510      96       0       0       0       0       0       000010000D    131
     510       0    -215       1       1                               0D    132
     120      97       0       0       0       0       0       000010000D    133
     120       0       0       1       0                               0D    134
     110      98       0       0       0       0       0       000010000D    135
     110       0       0       1       0                               0D    136
     110      99       0       0       0       0       0       001010000D    137
     110       0       0       1       0                               0D    138
     100     100       0       0       0       0     141       000010000D    139
     100       0       0       2       0                               0D    140
     124     102       0       0       0       0       0       000000000D    141
     124       0       0       2       0                               0D    142
     508     104       0       0       0       0       0       000010000D    143
     508       0       0       1       1                               0D    144
     508     105       0       0       0       0       0       000010000D    145
     508       0       0       1       1                               0D    146
     510     106       0       0       0       0       0       000010000D    147
     510       0    -215       1       1                               0D    148
     116     107       0       0       0       0       0       000010000D    149
     116       0       0       1       0                               0D    150
     123     108       0       0       0       0       0       000010200D    151
     123       0       0       1       0                               0D    152
     194     109       0       0       0       0       0       000010000D    153
     194       0       0       1       1                               0D    154
     123     110       0       0       0       0       0       000010200D    155
     123       0       0       1       0                               0D    156
     100     111       0       0       0       0     159       000010000D    157
     100       0       0       2       0                               0D    158
     124     113       0       0       0       0       0       000000000D    159
     124       0       0       2       0                               0D    160
     508     115       0       0       0       0       0       000010000D    161
     508       0       0       1       1                               0D    162
     508     116       0       0       0       0       0       000010000D    163
     508       0       0       1       1                               0D    164
     510     117       0       0       0       0       0       000010000D    165
     510       0    -215       1       1                               0D    166
     116     118       0       0       0       0       0       000010000D    167
     116       0       0       1       0                               0D    168
     123     119       0       0       0       0       0       000010200D    169
     123       0       0       1       0                               0D    170
     192     120       0       0       0       0       0       000010000D    171
     192       0       0       1       1                               0D    172
     123     121       0       0       0       0       0       000010200D    173
     123       0       0       1       0                               0D    174
     100     122       0       0       0       0     141       000010000D    175
     100       0       0       2       0                               0D    176
     508     124       0       0       0       0       0       000010000D    177
     508       0       0       1       1                               0D    178
     508     125       0       0       0       0       0       000010000D    179
     508       0       0       1       1                               0D    180
     510     126       0       0       0       0       0       000010000D    181
     510       0    -215       1       1                               0D    182
     120     127       0       0       0       0       0       000010000D    183
     120       0       0       1       0                               0D    184
     100     128       0       0       0       0     187       000010000D    185
     100       0       0       1       0                               0D    186
     124     129       0       0       0       0       0       000000000D    187
     124       0       0       2       0                               0D    188
     110     131       0       0       0       0       0       001010000D    189
     110       0       0       1       0                               0D    190
     508     132       0       0       0       0       0       000010000D    191
     508       0       0       1       1                               0D    192
     508     133       0       0       0       0       0       000010000D    193
     508       0       0       1       1                               0D    194
     510     134       0       0       0       0       0       000010000D    195
     510       0    -215       1       1                               0D    196
     116     135       0       0       0       0       0       000010000D    197
     116       0       0       1       0                               0D    198
     123     136       0       0       0       0       0       000010200D    199
     123       0       0       1       0                               0D    200
     198     137       0       0       0       0       0       000010000D    201
     198       0       0       1       1                               0D    202
     123     138       0       0       0       0       0       000010200D    203
     123       0       0       1       0                               0D    204
     508     139       0       0       0       0       0       000010000D    205
     508       0       0       1       1                               0D    206
     508     140       0       0       0       0       0       000010000D    207
     508       0       0       1       1                               0D    208
     510     141       0       0       0       0       0       000010000D    209
     510       0    -215       1       1                               0D    210
     514     142       0       0       0       0       0       000010000D    211
     514       0       0       2       1                               0D    212
     186     144       0       0       1       0       0       000000000D    213
     186       0       0       1       0                 Solido1       0D    214
     314     145       0       0       0       0       0       000000000D    215
     314       0       8       1       0                               0D    216
406,2,0,6H000501;                                                      1P      1
120,7,5,0.0D0,6.28318530717959D0;                                      3P      2
110,69.79D0,110.505773502692D0,0.0D0,70.01D0,110.37875644347D0,        5P      3
0.0D0;                                                                 5P      4
110,69.79D0,120.0D0,0.0D0,70.79D0,120.0D0,0.0D0;                       7P      5
504,12,13,11,1,11,1,19,11,2,11,2,35,11,3,11,3,51,11,4,11,4,71,         9P      6
11,5,11,5,87,11,6,11,6,101,11,7,11,7,107,11,8,11,8,123,11,9,11,        9P      7
9,139,11,10,11,10,157,11,11,11,11,175,11,12,11,12;                     9P      8
502,12,69.8D0,129.5D0,-1.16341445918999D-15,70.0D0,                   11P      9
129.615470053838D0,1.17755546237298D-15,70.0D0,                       11P     10
130.884529946162D0,-1.33297047587909D-15,40.0D0,129.5D0,              11P     11
1.16341445918999D-15,69.8D0,131.0D0,1.34711147906209D-15,40.0D0,      11P     12
131.0D0,1.34711147906209D-15,-9.5D0,.2D0,1.16341445918999D-15,        11P     13
-9.61547005383793D0,0.0D0,-1.17755546237298D-15,                      11P     14
-10.8845299461621D0,0.0D0,1.33297047587909D-15,-9.5D0,80.0D0,         11P     15
1.16341445918999D-15,-11.0D0,.2D0,-1.34711147906209D-15,-11.0D0,      11P     16
80.0D0,1.34711147906209D-15;                                          11P     17
100,0.0D0,0.0D0,0.0D0,-9.5D0,1.16341445918999D-15,-9.5D0,             13P     18
1.16341445918999D-15;                                                 13P     19
124,0.0D0,0.0D0,-1.0D0,69.8D0,-1.0D0,0.0D0,0.0D0,120.0D0,0.0D0,       15P     20
1.0D0,0.0D0,0.0D0;                                                    15P     21
508,1,0,9,1,1,0;                                                      17P     22
100,0.0D0,0.0D0,0.0D0,-9.61547005383791D0,1.17755546237298D-15,       19P     23
-9.61547005383791D0,1.17755546237298D-15;                             19P     24
124,0.0D0,0.0D0,1.0D0,70.0D0,-1.0D0,0.0D0,0.0D0,120.0D0,0.0D0,        21P     25
-1.0D0,0.0D0,0.0D0;                                                   21P     26
508,1,0,9,2,1,0;                                                      23P     27
510,3,2,1,17,23;                                                      25P     28
116,70.0D0,120.0D0,0.0D0,0;                                           27P     29
123,1.0D0,0.0D0,0.0D0;                                                29P     30
190,27,29,33;                                                         31P     31
123,0.0D0,0.0D0,-1.0D0;                                               33P     32
100,0.0D0,0.0D0,0.0D0,-10.8845299461621D0,1.33297047587909D-15,       35P     33
-10.8845299461621D0,1.33297047587909D-15;                             35P     34
124,0.0D0,0.0D0,-1.0D0,70.0D0,-1.0D0,0.0D0,0.0D0,120.0D0,0.0D0,       37P     35
1.0D0,0.0D0,0.0D0;                                                    37P     36
508,1,0,9,3,0,0;                                                      39P     37
508,1,0,9,2,0,0;                                                      41P     38
510,31,2,1,39,41;                                                     43P     39
120,49,47,0.0D0,6.28318530717959D0;                                   45P     40
110,38.51D0,110.5D0,0.0D0,71.29D0,110.5D0,0.0D0;                      47P     41
110,38.51D0,120.0D0,0.0D0,39.51D0,120.0D0,0.0D0;                      49P     42
100,0.0D0,0.0D0,0.0D0,-9.5D0,1.16341445918999D-15,-9.5D0,             51P     43
1.16341445918999D-15;                                                 51P     44
124,0.0D0,0.0D0,-1.0D0,40.0D0,-1.0D0,0.0D0,0.0D0,120.0D0,0.0D0,       53P     45
1.0D0,0.0D0,0.0D0;                                                    53P     46
508,1,0,9,4,1,0;                                                      55P     47
508,1,0,9,1,0,0;                                                      57P     48
510,45,2,1,55,57;                                                     59P     49
116,69.9D0,120.0D0,0.0D0,0;                                           61P     50
123,-1.0D0,0.0D0,0.0D0;                                               63P     51
194,61,63,10.942264973081D0,29.9999999999981D0,67;                    65P     52
123,0.0D0,-1.0D0,0.0D0;                                               67P     53
508,1,0,9,3,1,0;                                                      69P     54
100,0.0D0,0.0D0,0.0D0,-11.0D0,1.34711147906209D-15,-11.0D0,           71P     55
1.34711147906209D-15;                                                 71P     56
124,0.0D0,0.0D0,1.0D0,69.8D0,-1.0D0,0.0D0,0.0D0,120.0D0,0.0D0,        73P     57
-1.0D0,0.0D0,0.0D0;                                                   73P     58
508,1,0,9,5,1,0;                                                      75P     59
510,65,2,1,69,75;                                                     77P     60
116,40.0D0,120.0D0,0.0D0,0;                                           79P     61
123,1.0D0,0.0D0,0.0D0;                                                81P     62
192,79,81,11.0D0,85;                                                  83P     63
123,0.0D0,-1.0D0,0.0D0;                                               85P     64
100,0.0D0,0.0D0,0.0D0,-11.0D0,1.34711147906209D-15,-11.0D0,           87P     65
1.34711147906209D-15;                                                 87P     66
508,1,0,9,6,0,0;                                                      89P     67
508,1,0,9,5,0,0;                                                      91P     68
510,83,2,1,89,91;                                                     93P     69
120,99,97,0.0D0,6.28318530717959D0;                                   95P     70
110,9.4942264973081D0,.21D0,0.0D0,9.62124355652982D0,-.01D0,          97P     71
0.0D0;                                                                97P     72
110,1.67962290154525D-18,.21D0,0.0D0,1.67962290154525D-18,            99P     73
-.79D0,0.0D0;                                                         99P     74
100,0.0D0,0.0D0,0.0D0,-9.5D0,1.16341445918999D-15,-9.5D0,            101P     75
1.16341445918999D-15;                                                101P     76
124,1.0D0,0.0D0,0.0D0,1.67962290154525D-18,0.0D0,0.0D0,1.0D0,        103P     77
.2D0,0.0D0,-1.0D0,0.0D0,0.0D0;                                       103P     78
508,1,0,9,7,1,0;                                                     105P     79
100,0.0D0,0.0D0,0.0D0,-9.61547005383793D0,1.17755546237298D-15,      107P     80
-9.61547005383793D0,1.17755546237298D-15;                            107P     81
124,1.0D0,0.0D0,0.0D0,1.67962290154525D-18,0.0D0,0.0D0,-1.0D0,       109P     82
0.0D0,0.0D0,1.0D0,0.0D0,0.0D0;                                       109P     83
508,1,0,9,8,1,0;                                                     111P     84
510,95,2,1,105,111;                                                  113P     85
116,0.0D0,0.0D0,0.0D0,0;                                             115P     86
123,0.0D0,-1.0D0,0.0D0;                                              117P     87
190,115,117,121;                                                     119P     88
123,0.0D0,0.0D0,-1.0D0;                                              121P     89
100,0.0D0,0.0D0,0.0D0,-10.8845299461621D0,1.33297047587909D-15,      123P     90
-10.8845299461621D0,1.33297047587909D-15;                            123P     91
124,1.0D0,0.0D0,0.0D0,1.67962290154525D-18,0.0D0,0.0D0,1.0D0,        125P     92
0.0D0,0.0D0,-1.0D0,0.0D0,0.0D0;                                      125P     93
508,1,0,9,9,0,0;                                                     127P     94
508,1,0,9,8,0,0;                                                     129P     95
510,119,2,1,127,129;                                                 131P     96
120,137,135,0.0D0,6.28318530717959D0;                                133P     97
110,9.5D0,0.0D0,0.0D0,9.5D0,83.99D0,0.0D0;                           135P     98
110,0.0D0,0.0D0,0.0D0,0.0D0,1.0D0,0.0D0;                             137P     99
100,0.0D0,0.0D0,0.0D0,-9.5D0,1.16341445918999D-15,-9.5D0,            139P    100
1.16341445918999D-15;                                                139P    101
124,1.0D0,0.0D0,0.0D0,6.71849160618102D-16,0.0D0,0.0D0,-1.0D0,       141P    102
80.0D0,0.0D0,1.0D0,0.0D0,0.0D0;                                      141P    103
508,1,0,9,10,0,0;                                                    143P    104
508,1,0,9,7,0,0;                                                     145P    105
510,133,2,1,143,145;                                                 147P    106
116,1.67962290154525D-18,.1D0,0.0D0,0;                               149P    107
123,0.0D0,1.0D0,0.0D0;                                               151P    108
194,149,151,10.942264973081D0,29.9999999999999D0,155;                153P    109
123,1.0D0,0.0D0,0.0D0;                                               155P    110
100,0.0D0,0.0D0,0.0D0,-11.0D0,1.34711147906209D-15,-11.0D0,          157P    111
1.34711147906209D-15;                                                157P    112
124,1.0D0,0.0D0,0.0D0,1.67962290154525D-18,0.0D0,0.0D0,-1.0D0,       159P    113
.2D0,0.0D0,1.0D0,0.0D0,0.0D0;                                        159P    114
508,1,0,9,11,1,0;                                                    161P    115
508,1,0,9,9,1,0;                                                     163P    116
510,153,2,1,161,163;                                                 165P    117
116,0.0D0,0.0D0,0.0D0,0;                                             167P    118
123,8.39811450772627D-18,1.0D0,0.0D0;                                169P    119
192,167,169,11.0D0,173;                                              171P    120
123,1.0D0,0.0D0,0.0D0;                                               173P    121
100,0.0D0,0.0D0,0.0D0,-11.0D0,1.34711147906209D-15,-11.0D0,          175P    122
1.34711147906209D-15;                                                175P    123
508,1,0,9,12,1,0;                                                    177P    124
508,1,0,9,11,0,0;                                                    179P    125
510,171,2,1,177,179;                                                 181P    126
120,189,185,0.0D0,6.28318530717959D0;                                183P    127
100,0.0D0,0.0D0,0.0D0,9.5D0,0.0D0,9.5D0,0.0D0;                       185P    128
124,-1.0D0,0.0D0,0.0D0,0.0D0,0.0D0,0.0D0,1.0D0,80.0D0,0.0D0,         187P    129
1.0D0,0.0D0,-5.81707229594993D-16;                                   187P    130
110,40.0D0,80.0D0,0.0D0,40.0D0,80.0D0,1.0D0;                         189P    131
508,1,0,9,4,0,0;                                                     191P    132
508,1,0,9,10,1,0;                                                    193P    133
510,183,2,1,191,193;                                                 195P    134
116,40.0D0,80.0D0,0.0D0,0;                                           197P    135
123,0.0D0,0.0D0,-1.0D0;                                              199P    136
198,197,199,40.0D0,11.0D0,203;                                       201P    137
123,-1.0D0,0.0D0,0.0D0;                                              203P    138
508,1,0,9,6,1,0;                                                     205P    139
508,1,0,9,12,0,0;                                                    207P    140
510,201,2,1,205,207;                                                 209P    141
514,12,25,1,43,1,59,1,77,1,93,1,113,1,131,1,147,1,165,1,181,1,       211P    142
195,1,209,1;                                                         211P    143
186,211,1,0;                                                         213P    144
314,63.9216005802155D0,63.9216005802155D0,68.6275005340576D0,;       215P    145
S      1G      4D    216P    145                                        T      1
